Rondo Alla Turca 2010 – Heavy Metal version

Commenti

Transcript

Rondo Alla Turca 2010 – Heavy Metal version
“Rondo Alla Turca 2010 – Heavy Metal version”
by Charlie Parra del Riego - http://charlieparra.com
(tabs version: 1.0)
Adaptation of Piano Sonata No. 11 in A major, K 331 - Third Movement "Alla Turca" - by Wolfgang Amadeus Mozart
PART I (INTRO)
|-------------------------------------------------19-17-16-17-19-17-16-17-20~---17-20-19
|--12-10-9-10/13----15-13-12-13/17----18-17-16-17--------------------------------------|--------------------------------------------------------------------------------------|--------------------------------------------------------------------------------------|--------------------------------------------------------------------------------------|--------------------------------------------------------------------------------------|--17h19--17----17-19-17h19--17----17-19-17h19--17----------|------------20-----------------20-----------------20-19-17~|-----------------------------------------------------------|-----------------------------------------------------------|-----------------------------------------------------------|-----------------------------------------------------------|--------15-15-17-15-------------------15-15-17-15------------------12-12-13-12--------|--17-18-------------18-17-15~---17-18-------------18-17-15---13-15-------------15-13-12
|--------------------------------------------------------------------------------------|--------------------------------------------------------------------------------------|--------------------------------------------------------------------------------------|--------------------------------------------------------------------------------------|--------12-12-13-12------------------------------------------------------------19-17-16
|--13-15-------------15-13-12~--12-10-9-10/13----15-13-12-13/17-----18-17-16-17--------|--------------------------------------------------------------------------------------|--------------------------------------------------------------------------------------|--------------------------------------------------------------------------------------|--------------------------------------------------------------------------------------|--17-19-17-16-17-20~----17-19-20-19h-20-19p-17-16-17-----------------------------|----------------------------------------------------17-18-15-13-15-13-12-13-12---|------------------------------------------------------------------------------14~|---------------------------------------------------------------------------------|---------------------------------------------------------------------------------|----------------------------------------------------------------------------------
PART II
|---------------------------------------------------------------------------------------|-----12-14~------12-14-12-14-12----------------12----------12-14~------12-14-12-14-12--|--14----------14----------------14-13-11-13-14----13----14----------14----------------14
|-----------------------------------------------------14--------------------------------|---------------------------------------------------------------------------------------|---------------------------------------------------------------------------------------|----------------------17-19-21~---17-19-21-19-21-19-17----16-17-19-16----17-19-21~---17
|--------12---------------------------------------------19-------------17--------------|--13-11----13----14-------------------------------------------------------------------|--------------14----------------------------------------------------------------------|--------------------------------------------------------------------------------------|--------------------------------------------------------------------------------------|--17-19-21-19-21-19-17----19-16----17
|-----------------------19-------17--|------------------------------------|------------------------------------|------------------------------------|-------------------------------------
PART III
NOTE: This is the "hardcore" part, try to use your pinky finger a lot
|--9-10-9-7----7------------------------------------------5---5-7-9-7-9---9-10-9-7----7
|-----------10---10-9-7-10-9-7----7-9-------------7-6-7-9---9----------------------10-|------------------------------10-----10-6-8-10-6-------------------------------------|-------------------------------------------------------------------------------------|-------------------------------------------------------------------------------------|-------------------------------------------------------------------------------------|-------------------------------------------------|--10-9-7-10-9-7-5-7-9-5-----5-----5-7------------|------------------------6-8---6-8-----8-5-6-8-5-6|-------------------------------------------------|-------------------------------------------------|-------------------------------------------------|--9-10-9-7----7------------------------------------------5---5-7-9-7-9---9-10-9-7----7
|-----------10---10-9-7-10-9-7----7-9-------------7-6-7-9---9----------------------10-|------------------------------10-----10-6-8-10-6-------------------------------------|-------------------------------------------------------------------------------------|-------------------------------------------------------------------------------------|-------------------------------------------------------------------------------------|-------------------------------------------------|--10-9-7-10-9-7-5-7-9-5-----5-----5-7------------|------------------------6-8---6-8-----8-5-6-8-5-6|-------------------------------------------------|-------------------------------------------------|-------------------------------------------------|-----------------------------14-16-17-17-16-14----------------------------14-16-17-18-19
|--17-15-14----------14-15-17-------------------17-15-14----------14-15-17--------------|-----------16-14-16-------------------------------------16-14-16-----------------------|---------------------------------------------------------------------------------------|---------------------------------------------------------------------------------------|---------------------------------------------------------------------------------------|-----------------------------14-16-17-17-16-14--------------------------------------|--17-15-14----------14-15-17-------------------17-15-14----14-17----14----15--------|-----------16-14-16-------------------------------------16-------14----16----13-16-14
|------------------------------------------------------------------------------------|------------------------------------------------------------------------------------|------------------------------------------------------------------------------------|--9-10-9-7----7------------------------------------------5---5-7-9-7-9-7-9-7-9-7-10-9-10
|-----------10---10-9-7-10-9-7----7-9-------------7-6-7-9---9---------------------------|------------------------------10-----10-6-8-10-6---------------------------------------|---------------------------------------------------------------------------------------|---------------------------------------------------------------------------------------|---------------------------------------------------------------------------------------|--9-10-9-10-9-10-9-7---------7------7-------------|---------------------10-9-10---9-10---10-6-7-9-6-7|--------------------------------------------------|--------------------------------------------------|--------------------------------------------------|---------------------------------------------------
PART IV (same as II)
|---------------------------------------------------------------------------------------|-----12-14~------12-14-12-14-12----------------12----------12-14~------12-14-12-14-12--|--14----------14----------------14-13-11-13-14----13----14----------14----------------14
|-----------------------------------------------------14--------------------------------|---------------------------------------------------------------------------------------|---------------------------------------------------------------------------------------|----------------------17-19-21~---17-19-21-19-21-19-17----16-17-19-16----17-19-21~---17
|--------12---------------------------------------------19-------------17--------------|--13-11----13----14-------------------------------------------------------------------|--------------14----------------------------------------------------------------------|--------------------------------------------------------------------------------------|--------------------------------------------------------------------------------------|--17-19-21-19-21-19-17----19-16----17
|-----------------------19-------17--|------------------------------------|------------------------------------|------------------------------------|-------------------------------------
PART V (Ending)
|--------------------------------------------------19-17-16-17-19-17-16-17-20~---|--12-10-9-10/13----15-13-12-13/17-----18-17-16-17-------------------------------|--------------------------------------------------------------------------------|--------------------------------------------------------------------------------|--------------------------------------------------------------------------------|--------------------------------------------------------------------------------|17-19-20-19h-20-19p-17-16-17-----------------------------------------------------|----------------------------17-18-15-13-15-13-12-13-12---------------------------|------------------------------------------------------14~------------------------|---------------------------------------------------------------------------------|---------------------------------------------------------------------------------|---------------------------------------------------------------------------------|17-19-20-19h-20-19p-17-16-17-------------------------------------------19--------|----------------------------17-18-15-13-15-13-12-13-12-----------------19b21-----|------------------------------------------------------14~------------------------|---------------------------------------------------------------------------------|---------------------------------------------------------------------------------|----------------------------------------------------------------------------------

Documenti analoghi